ISO-10303-21;
HEADER;
FILE_DESCRIPTION(('CATIA V5 STEP Exchange'),'2;1');

FILE_NAME('\\\\stisrv.epfl.ch\\sti-sgm\\sgm-ens\\soubiell\\Enseignement\\ME-101-106 - Construction M\X2\00E9\X0\canique I\\1. Supports de cours\\SW2\\Fichiers sources et illustrations\\PIECE C.stp','2023-10-16T12:17:54+00:00',('none'),('none'),'CATIA Unofficial Packaging Version SP3','CATIA V5 STEP AP203','none');

FILE_SCHEMA(('CONFIG_CONTROL_DESIGN'));

ENDSEC;
DATA;
#5=PRODUCT('PIECE C','','',(#2)) ;
#1=APPLICATION_CONTEXT('configuration controlled 3D design of mechanical parts and assemblies') ;
#14=PRODUCT_DEFINITION('',' ',#6,#3) ;
#16=SECURITY_CLASSIFICATION(' ',' ',#15) ;
#15=SECURITY_CLASSIFICATION_LEVEL('unclassified') ;
#46=CARTESIAN_POINT(' ',(0.,0.,0.)) ;
#51=CARTESIAN_POINT('Axis2P3D Location',(0.,0.,350.)) ;
#56=CARTESIAN_POINT('Line Origine',(250.,0.,350.)) ;
#60=CARTESIAN_POINT('Vertex',(150.,0.,350.)) ;
#62=CARTESIAN_POINT('Vertex',(350.,0.,350.)) ;
#65=CARTESIAN_POINT('Line Origine',(350.,175.,350.)) ;
#69=CARTESIAN_POINT('Vertex',(350.,350.,350.)) ;
#72=CARTESIAN_POINT('Line Origine',(175.,350.,350.)) ;
#76=CARTESIAN_POINT('Vertex',(0.,350.,350.)) ;
#79=CARTESIAN_POINT('Line Origine',(0.,250.,350.)) ;
#83=CARTESIAN_POINT('Vertex',(0.,150.,350.)) ;
#86=CARTESIAN_POINT('Line Origine',(75.,75.,350.)) ;
#99=CARTESIAN_POINT('Axis2P3D Location',(0.,350.,0.)) ;
#104=CARTESIAN_POINT('Line Origine',(0.,350.,175.)) ;
#108=CARTESIAN_POINT('Vertex',(0.,350.,0.)) ;
#111=CARTESIAN_POINT('Line Origine',(0.,175.,0.)) ;
#115=CARTESIAN_POINT('Vertex',(0.,0.,0.)) ;
#118=CARTESIAN_POINT('Line Origine',(0.,0.,100.)) ;
#122=CARTESIAN_POINT('Vertex',(0.,0.,200.)) ;
#125=CARTESIAN_POINT('Line Origine',(0.,75.,200.)) ;
#129=CARTESIAN_POINT('Vertex',(0.,150.,200.)) ;
#132=CARTESIAN_POINT('Line Origine',(0.,150.,275.)) ;
#146=CARTESIAN_POINT('Axis2P3D Location',(0.,150.,350.)) ;
#151=CARTESIAN_POINT('Line Origine',(150.,0.,275.)) ;
#155=CARTESIAN_POINT('Vertex',(150.,0.,200.)) ;
#158=CARTESIAN_POINT('Line Origine',(75.,75.,200.)) ;
#170=CARTESIAN_POINT('Axis2P3D Location',(0.,0.,200.)) ;
#175=CARTESIAN_POINT('Line Origine',(75.,5.3290705182E-015,200.)) ;
#186=CARTESIAN_POINT('Axis2P3D Location',(0.,0.,0.)) ;
#191=CARTESIAN_POINT('Line Origine',(350.,0.,225.)) ;
#195=CARTESIAN_POINT('Vertex',(350.,0.,100.)) ;
#198=CARTESIAN_POINT('Line Origine',(100.,0.,0.)) ;
#202=CARTESIAN_POINT('Vertex',(200.,0.,0.)) ;
#205=CARTESIAN_POINT('Line Origine',(200.,0.,50.)) ;
#209=CARTESIAN_POINT('Vertex',(200.,0.,100.)) ;
#212=CARTESIAN_POINT('Line Origine',(275.,0.,100.)) ;
#228=CARTESIAN_POINT('Axis2P3D Location',(0.,0.,0.)) ;
#233=CARTESIAN_POINT('Line Origine',(250.,175.,0.)) ;
#237=CARTESIAN_POINT('Vertex',(300.,350.,0.)) ;
#240=CARTESIAN_POINT('Line Origine',(150.,350.,0.)) ;
#252=CARTESIAN_POINT('Axis2P3D Location',(350.,350.,0.)) ;
#257=CARTESIAN_POINT('Line Origine',(350.,350.,225.)) ;
#261=CARTESIAN_POINT('Vertex',(350.,350.,100.)) ;
#264=CARTESIAN_POINT('Line Origine',(325.,350.,100.)) ;
#268=CARTESIAN_POINT('Vertex',(300.,350.,100.)) ;
#271=CARTESIAN_POINT('Line Origine',(300.,350.,50.)) ;
#285=CARTESIAN_POINT('Axis2P3D Location',(350.,0.,0.)) ;
#290=CARTESIAN_POINT('Line Origine',(350.,175.,100.)) ;
#302=CARTESIAN_POINT('Axis2P3D Location',(300.,350.,0.)) ;
#307=CARTESIAN_POINT('Line Origine',(250.,175.,100.)) ;
#319=CARTESIAN_POINT('Axis2P3D Location',(0.,0.,100.)) ;
#52=DIRECTION('Axis2P3D Direction',(0.,0.,1.)) ;
#53=DIRECTION('Axis2P3D XDirection',(1.,0.,0.)) ;
#57=DIRECTION('Vector Direction',(1.,0.,0.)) ;
#66=DIRECTION('Vector Direction',(0.,1.,0.)) ;
#73=DIRECTION('Vector Direction',(-1.,0.,0.)) ;
#80=DIRECTION('Vector Direction',(0.,-1.,0.)) ;
#87=DIRECTION('Vector Direction',(0.707106781187,-0.707106781187,0.)) ;
#100=DIRECTION('Axis2P3D Direction',(-1.,0.,0.)) ;
#101=DIRECTION('Axis2P3D XDirection',(0.,-1.,0.)) ;
#105=DIRECTION('Vector Direction',(0.,0.,1.)) ;
#112=DIRECTION('Vector Direction',(0.,-1.,0.)) ;
#119=DIRECTION('Vector Direction',(0.,0.,1.)) ;
#126=DIRECTION('Vector Direction',(0.,1.,0.)) ;
#133=DIRECTION('Vector Direction',(0.,0.,-1.)) ;
#147=DIRECTION('Axis2P3D Direction',(0.707106781187,0.707106781187,0.)) ;
#148=DIRECTION('Axis2P3D XDirection',(0.707106781187,-0.707106781187,0.)) ;
#152=DIRECTION('Vector Direction',(0.,0.,-1.)) ;
#159=DIRECTION('Vector Direction',(0.707106781187,-0.707106781187,0.)) ;
#171=DIRECTION('Axis2P3D Direction',(0.,0.,1.)) ;
#172=DIRECTION('Axis2P3D XDirection',(1.,0.,0.)) ;
#176=DIRECTION('Vector Direction',(-1.,-7.1054273576E-017,0.)) ;
#187=DIRECTION('Axis2P3D Direction',(0.,-1.,0.)) ;
#188=DIRECTION('Axis2P3D XDirection',(1.,0.,0.)) ;
#192=DIRECTION('Vector Direction',(0.,0.,1.)) ;
#199=DIRECTION('Vector Direction',(1.,0.,0.)) ;
#206=DIRECTION('Vector Direction',(0.,0.,1.)) ;
#213=DIRECTION('Vector Direction',(1.,0.,0.)) ;
#229=DIRECTION('Axis2P3D Direction',(0.,0.,1.)) ;
#230=DIRECTION('Axis2P3D XDirection',(1.,0.,0.)) ;
#234=DIRECTION('Vector Direction',(-0.274721127897,-0.961523947641,0.)) ;
#241=DIRECTION('Vector Direction',(-1.,0.,0.)) ;
#253=DIRECTION('Axis2P3D Direction',(0.,1.,-0.)) ;
#254=DIRECTION('Axis2P3D XDirection',(-1.,0.,0.)) ;
#258=DIRECTION('Vector Direction',(0.,0.,1.)) ;
#265=DIRECTION('Vector Direction',(-1.,0.,0.)) ;
#272=DIRECTION('Vector Direction',(0.,0.,1.)) ;
#286=DIRECTION('Axis2P3D Direction',(1.,0.,0.)) ;
#287=DIRECTION('Axis2P3D XDirection',(0.,1.,0.)) ;
#291=DIRECTION('Vector Direction',(0.,1.,0.)) ;
#303=DIRECTION('Axis2P3D Direction',(-0.961523947641,0.274721127897,0.)) ;
#304=DIRECTION('Axis2P3D XDirection',(-0.274721127897,-0.961523947641,0.)) ;
#308=DIRECTION('Vector Direction',(-0.274721127897,-0.961523947641,0.)) ;
#320=DIRECTION('Axis2P3D Direction',(0.,0.,-1.)) ;
#321=DIRECTION('Axis2P3D XDirection',(1.,0.,0.)) ;
#47=AXIS2_PLACEMENT_3D(' ',#46,$,$) ;
#54=AXIS2_PLACEMENT_3D('Plane Axis2P3D',#51,#52,#53) ;
#102=AXIS2_PLACEMENT_3D('Plane Axis2P3D',#99,#100,#101) ;
#149=AXIS2_PLACEMENT_3D('Plane Axis2P3D',#146,#147,#148) ;
#173=AXIS2_PLACEMENT_3D('Plane Axis2P3D',#170,#171,#172) ;
#189=AXIS2_PLACEMENT_3D('Plane Axis2P3D',#186,#187,#188) ;
#231=AXIS2_PLACEMENT_3D('Plane Axis2P3D',#228,#229,#230) ;
#255=AXIS2_PLACEMENT_3D('Plane Axis2P3D',#252,#253,#254) ;
#288=AXIS2_PLACEMENT_3D('Plane Axis2P3D',#285,#286,#287) ;
#305=AXIS2_PLACEMENT_3D('Plane Axis2P3D',#302,#303,#304) ;
#322=AXIS2_PLACEMENT_3D('Plane Axis2P3D',#319,#320,#321) ;
#40=PRODUCT_DEFINITION_SHAPE(' ',' ',#14) ;
#31=APPROVAL_PERSON_ORGANIZATION(#25,#21,#19) ;
#25=PERSON_AND_ORGANIZATION(#22,#23) ;
#22=PERSON(' ',' ',' ',$,$,$) ;
#23=ORGANIZATION(' ',' ',' ') ;
#21=APPROVAL(#20,' ') ;
#20=APPROVAL_STATUS('not_yet_approved') ;
#19=APPROVAL_ROLE('APPROVER') ;
#13=DATE_AND_TIME(#11,#12) ;
#12=LOCAL_TIME(14,17,54.,#10) ;
#10=COORDINATED_UNIVERSAL_TIME_OFFSET(0,0,.AHEAD.) ;
#92=ORIENTED_EDGE('',*,*,#64,.T.) ;
#93=ORIENTED_EDGE('',*,*,#71,.T.) ;
#94=ORIENTED_EDGE('',*,*,#78,.T.) ;
#95=ORIENTED_EDGE('',*,*,#85,.T.) ;
#96=ORIENTED_EDGE('',*,*,#90,.F.) ;
#138=ORIENTED_EDGE('',*,*,#85,.F.) ;
#139=ORIENTED_EDGE('',*,*,#110,.F.) ;
#140=ORIENTED_EDGE('',*,*,#117,.T.) ;
#141=ORIENTED_EDGE('',*,*,#124,.T.) ;
#142=ORIENTED_EDGE('',*,*,#131,.F.) ;
#143=ORIENTED_EDGE('',*,*,#136,.F.) ;
#164=ORIENTED_EDGE('',*,*,#157,.F.) ;
#165=ORIENTED_EDGE('',*,*,#90,.T.) ;
#166=ORIENTED_EDGE('',*,*,#136,.T.) ;
#167=ORIENTED_EDGE('',*,*,#162,.F.) ;
#181=ORIENTED_EDGE('',*,*,#179,.T.) ;
#182=ORIENTED_EDGE('',*,*,#162,.T.) ;
#183=ORIENTED_EDGE('',*,*,#131,.T.) ;
#218=ORIENTED_EDGE('',*,*,#197,.T.) ;
#219=ORIENTED_EDGE('',*,*,#64,.F.) ;
#220=ORIENTED_EDGE('',*,*,#157,.T.) ;
#221=ORIENTED_EDGE('',*,*,#179,.F.) ;
#222=ORIENTED_EDGE('',*,*,#124,.F.) ;
#223=ORIENTED_EDGE('',*,*,#204,.T.) ;
#224=ORIENTED_EDGE('',*,*,#211,.T.) ;
#225=ORIENTED_EDGE('',*,*,#216,.F.) ;
#246=ORIENTED_EDGE('',*,*,#239,.F.) ;
#247=ORIENTED_EDGE('',*,*,#204,.F.) ;
#248=ORIENTED_EDGE('',*,*,#117,.F.) ;
#249=ORIENTED_EDGE('',*,*,#244,.F.) ;
#277=ORIENTED_EDGE('',*,*,#244,.T.) ;
#278=ORIENTED_EDGE('',*,*,#110,.T.) ;
#279=ORIENTED_EDGE('',*,*,#78,.F.) ;
#280=ORIENTED_EDGE('',*,*,#263,.F.) ;
#281=ORIENTED_EDGE('',*,*,#270,.F.) ;
#282=ORIENTED_EDGE('',*,*,#275,.F.) ;
#296=ORIENTED_EDGE('',*,*,#263,.T.) ;
#297=ORIENTED_EDGE('',*,*,#71,.F.) ;
#298=ORIENTED_EDGE('',*,*,#197,.F.) ;
#299=ORIENTED_EDGE('',*,*,#294,.F.) ;
#313=ORIENTED_EDGE('',*,*,#211,.F.) ;
#314=ORIENTED_EDGE('',*,*,#239,.T.) ;
#315=ORIENTED_EDGE('',*,*,#275,.T.) ;
#316=ORIENTED_EDGE('',*,*,#311,.F.) ;
#325=ORIENTED_EDGE('',*,*,#311,.T.) ;
#326=ORIENTED_EDGE('',*,*,#270,.T.) ;
#327=ORIENTED_EDGE('',*,*,#294,.T.) ;
#328=ORIENTED_EDGE('',*,*,#216,.T.) ;
#50=CLOSED_SHELL('Closed Shell',(#98,#145,#169,#185,#227,#251,#284,#301,#318,#330)) ;
#58=VECTOR('Line Direction',#57,1.) ;
#67=VECTOR('Line Direction',#66,1.) ;
#74=VECTOR('Line Direction',#73,1.) ;
#81=VECTOR('Line Direction',#80,1.) ;
#88=VECTOR('Line Direction',#87,1.) ;
#106=VECTOR('Line Direction',#105,1.) ;
#113=VECTOR('Line Direction',#112,1.) ;
#120=VECTOR('Line Direction',#119,1.) ;
#127=VECTOR('Line Direction',#126,1.) ;
#134=VECTOR('Line Direction',#133,1.) ;
#153=VECTOR('Line Direction',#152,1.) ;
#160=VECTOR('Line Direction',#159,1.) ;
#177=VECTOR('Line Direction',#176,1.) ;
#193=VECTOR('Line Direction',#192,1.) ;
#200=VECTOR('Line Direction',#199,1.) ;
#207=VECTOR('Line Direction',#206,1.) ;
#214=VECTOR('Line Direction',#213,1.) ;
#235=VECTOR('Line Direction',#234,1.) ;
#242=VECTOR('Line Direction',#241,1.) ;
#259=VECTOR('Line Direction',#258,1.) ;
#266=VECTOR('Line Direction',#265,1.) ;
#273=VECTOR('Line Direction',#272,1.) ;
#292=VECTOR('Line Direction',#291,1.) ;
#309=VECTOR('Line Direction',#308,1.) ;
#332=ADVANCED_BREP_SHAPE_REPRESENTATION('NONE',(#331),#45) ;
#48=SHAPE_REPRESENTATION(' ',(#47),#45) ;
#98=ADVANCED_FACE('Corps principal',(#97),#55,.T.) ;
#145=ADVANCED_FACE('Corps principal',(#144),#103,.T.) ;
#169=ADVANCED_FACE('Corps principal',(#168),#150,.F.) ;
#185=ADVANCED_FACE('Corps principal',(#184),#174,.T.) ;
#227=ADVANCED_FACE('Corps principal',(#226),#190,.T.) ;
#251=ADVANCED_FACE('Corps principal',(#250),#232,.F.) ;
#284=ADVANCED_FACE('Corps principal',(#283),#256,.T.) ;
#301=ADVANCED_FACE('Corps principal',(#300),#289,.T.) ;
#318=ADVANCED_FACE('Corps principal',(#317),#306,.F.) ;
#330=ADVANCED_FACE('Corps principal',(#329),#323,.T.) ;
#4=APPLICATION_PROTOCOL_DEFINITION('international standard','config_control_design',1994,#1) ;
#32=APPROVAL_DATE_TIME(#13,#21) ;
#331=MANIFOLD_SOLID_BREP('Corps principal',#50) ;
#11=CALENDAR_DATE(2023,16,10) ;
#30=CC_DESIGN_APPROVAL(#21,(#16,#6,#14)) ;
#18=CC_DESIGN_DATE_AND_TIME_ASSIGNMENT(#13,#17,(#16)) ;
#29=CC_DESIGN_DATE_AND_TIME_ASSIGNMENT(#13,#28,(#14)) ;
#17=DATE_TIME_ROLE('classification_date') ;
#28=DATE_TIME_ROLE('creation_date') ;
#27=CC_DESIGN_PERSON_AND_ORGANIZATION_ASSIGNMENT(#25,#26,(#16)) ;
#33=CC_DESIGN_PERSON_AND_ORGANIZATION_ASSIGNMENT(#25,#34,(#6)) ;
#35=CC_DESIGN_PERSON_AND_ORGANIZATION_ASSIGNMENT(#25,#36,(#6,#14)) ;
#37=CC_DESIGN_PERSON_AND_ORGANIZATION_ASSIGNMENT(#25,#38,(#5)) ;
#26=PERSON_AND_ORGANIZATION_ROLE('classification_officer') ;
#34=PERSON_AND_ORGANIZATION_ROLE('design_supplier') ;
#36=PERSON_AND_ORGANIZATION_ROLE('creator') ;
#38=PERSON_AND_ORGANIZATION_ROLE('design_owner') ;
#39=CC_DESIGN_SECURITY_CLASSIFICATION(#16,(#6)) ;
#333=SHAPE_REPRESENTATION_RELATIONSHIP(' ',' ',#48,#332) ;
#3=DESIGN_CONTEXT(' ',#1,'design') ;
#64=EDGE_CURVE('',#61,#63,#59,.T.) ;
#71=EDGE_CURVE('',#63,#70,#68,.T.) ;
#78=EDGE_CURVE('',#70,#77,#75,.T.) ;
#85=EDGE_CURVE('',#77,#84,#82,.T.) ;
#90=EDGE_CURVE('',#61,#84,#89,.F.) ;
#110=EDGE_CURVE('',#109,#77,#107,.T.) ;
#117=EDGE_CURVE('',#109,#116,#114,.T.) ;
#124=EDGE_CURVE('',#116,#123,#121,.T.) ;
#131=EDGE_CURVE('',#130,#123,#128,.F.) ;
#136=EDGE_CURVE('',#84,#130,#135,.T.) ;
#157=EDGE_CURVE('',#61,#156,#154,.T.) ;
#162=EDGE_CURVE('',#156,#130,#161,.F.) ;
#179=EDGE_CURVE('',#123,#156,#178,.F.) ;
#197=EDGE_CURVE('',#196,#63,#194,.T.) ;
#204=EDGE_CURVE('',#116,#203,#201,.T.) ;
#211=EDGE_CURVE('',#203,#210,#208,.T.) ;
#216=EDGE_CURVE('',#196,#210,#215,.F.) ;
#239=EDGE_CURVE('',#203,#238,#236,.F.) ;
#244=EDGE_CURVE('',#238,#109,#243,.T.) ;
#263=EDGE_CURVE('',#262,#70,#260,.T.) ;
#270=EDGE_CURVE('',#269,#262,#267,.F.) ;
#275=EDGE_CURVE('',#238,#269,#274,.T.) ;
#294=EDGE_CURVE('',#262,#196,#293,.F.) ;
#311=EDGE_CURVE('',#210,#269,#310,.F.) ;
#91=EDGE_LOOP('',(#92,#93,#94,#95,#96)) ;
#137=EDGE_LOOP('',(#138,#139,#140,#141,#142,#143)) ;
#163=EDGE_LOOP('',(#164,#165,#166,#167)) ;
#180=EDGE_LOOP('',(#181,#182,#183)) ;
#217=EDGE_LOOP('',(#218,#219,#220,#221,#222,#223,#224,#225)) ;
#245=EDGE_LOOP('',(#246,#247,#248,#249)) ;
#276=EDGE_LOOP('',(#277,#278,#279,#280,#281,#282)) ;
#295=EDGE_LOOP('',(#296,#297,#298,#299)) ;
#312=EDGE_LOOP('',(#313,#314,#315,#316)) ;
#324=EDGE_LOOP('',(#325,#326,#327,#328)) ;
#97=FACE_OUTER_BOUND('',#91,.T.) ;
#144=FACE_OUTER_BOUND('',#137,.T.) ;
#168=FACE_OUTER_BOUND('',#163,.T.) ;
#184=FACE_OUTER_BOUND('',#180,.T.) ;
#226=FACE_OUTER_BOUND('',#217,.T.) ;
#250=FACE_OUTER_BOUND('',#245,.T.) ;
#283=FACE_OUTER_BOUND('',#276,.T.) ;
#300=FACE_OUTER_BOUND('',#295,.T.) ;
#317=FACE_OUTER_BOUND('',#312,.T.) ;
#329=FACE_OUTER_BOUND('',#324,.T.) ;
#44=UNCERTAINTY_MEASURE_WITH_UNIT(LENGTH_MEASURE(0.005),#41,'distance_accuracy_value','CONFUSED CURVE UNCERTAINTY') ;
#59=LINE('Line',#56,#58) ;
#68=LINE('Line',#65,#67) ;
#75=LINE('Line',#72,#74) ;
#82=LINE('Line',#79,#81) ;
#89=LINE('Line',#86,#88) ;
#107=LINE('Line',#104,#106) ;
#114=LINE('Line',#111,#113) ;
#121=LINE('Line',#118,#120) ;
#128=LINE('Line',#125,#127) ;
#135=LINE('Line',#132,#134) ;
#154=LINE('Line',#151,#153) ;
#161=LINE('Line',#158,#160) ;
#178=LINE('Line',#175,#177) ;
#194=LINE('Line',#191,#193) ;
#201=LINE('Line',#198,#200) ;
#208=LINE('Line',#205,#207) ;
#215=LINE('Line',#212,#214) ;
#236=LINE('Line',#233,#235) ;
#243=LINE('Line',#240,#242) ;
#260=LINE('Line',#257,#259) ;
#267=LINE('Line',#264,#266) ;
#274=LINE('Line',#271,#273) ;
#293=LINE('Line',#290,#292) ;
#310=LINE('Line',#307,#309) ;
#2=MECHANICAL_CONTEXT(' ',#1,'mechanical') ;
#24=PERSONAL_ADDRESS(' ',' ',' ',' ',' ',' ',' ',' ',' ',' ',' ',' ',(#22),' ') ;
#55=PLANE('',#54) ;
#103=PLANE('',#102) ;
#150=PLANE('',#149) ;
#174=PLANE('',#173) ;
#190=PLANE('',#189) ;
#232=PLANE('',#231) ;
#256=PLANE('',#255) ;
#289=PLANE('',#288) ;
#306=PLANE('',#305) ;
#323=PLANE('',#322) ;
#7=PRODUCT_CATEGORY('part',$) ;
#9=PRODUCT_CATEGORY_RELATIONSHIP(' ',' ',#7,#8) ;
#6=PRODUCT_DEFINITION_FORMATION_WITH_SPECIFIED_SOURCE('',' ',#5,.NOT_KNOWN.) ;
#8=PRODUCT_RELATED_PRODUCT_CATEGORY('detail',$,(#5)) ;
#49=SHAPE_DEFINITION_REPRESENTATION(#40,#48) ;
#61=VERTEX_POINT('',#60) ;
#63=VERTEX_POINT('',#62) ;
#70=VERTEX_POINT('',#69) ;
#77=VERTEX_POINT('',#76) ;
#84=VERTEX_POINT('',#83) ;
#109=VERTEX_POINT('',#108) ;
#116=VERTEX_POINT('',#115) ;
#123=VERTEX_POINT('',#122) ;
#130=VERTEX_POINT('',#129) ;
#156=VERTEX_POINT('',#155) ;
#196=VERTEX_POINT('',#195) ;
#203=VERTEX_POINT('',#202) ;
#210=VERTEX_POINT('',#209) ;
#238=VERTEX_POINT('',#237) ;
#262=VERTEX_POINT('',#261) ;
#269=VERTEX_POINT('',#268) ;
#41=(LENGTH_UNIT()NAMED_UNIT(*)SI_UNIT(.MILLI.,.METRE.)) ;
#42=(NAMED_UNIT(*)PLANE_ANGLE_UNIT()SI_UNIT($,.RADIAN.)) ;
#43=(NAMED_UNIT(*)SI_UNIT($,.STERADIAN.)SOLID_ANGLE_UNIT()) ;
#45=(GEOMETRIC_REPRESENTATION_CONTEXT(3)GLOBAL_UNCERTAINTY_ASSIGNED_CONTEXT((#44))GLOBAL_UNIT_ASSIGNED_CONTEXT((#41,#42,#43))REPRESENTATION_CONTEXT(' ',' ')) ;
ENDSEC;
END-ISO-10303-21;
